Song : Holes 
Part : Guitar 
Tuning: CGCFAD 
Tabbed: Sam Price aka Bluey, and Marcus Allison aka OGT 
Email : [email protected] 
Visit : www.tooltabs.net/cog/ 
Legend 
nh - natural harmonic   ph - pinch harmonic 
pm - palm mute          x - muted string 
h - hammer on           p - pull off 
\\ - slide down         // - slide up 
b - bend                ~~ - vibrato 
<7> - natural harmonic  x/// - pick scrape (directions same as slide) 
~ - sustain 
D|-------------------------------------------------------------------- 
A|-------------------------------------------------------------------- 
F|-------------------------------------------------------------------- 
C|-------------------------------------------------------------------- x1 
G|-------------------------------------------------------------------- 
C|10\4-4-44-44-10--10-10\4-4-44-44-10--10-10\5-55-55-10--10-10\5-5-9-9 
D|-------------------------------------------------------------------- 
A|-------------------------------------------------------------------- 
F|-------------------------------------------------------------------- 
C|---------------------------------------------------------------5/9-9 x1 
G|----------------------------------------------------------10-5-5/9-9 
C|10\4-4-44-44-10--10-10\4-4-44-44-10--10-10\5-55-55-10--10-10\5-5/9-9 
D|-------------------------------------------------------------------- 
A|-------------------------------------------------------------------- 
F|-------------------------------------------------------------------- 
C|10\4-4-44-44-10--10-10\4-4-44-44-10--10-10\5-55-55-10--10-10\5-5-9-9 x3 
G|10\4-4-44-44-10--10-10\4-4-44-44-10--10-10\5-55-55-10--10-10\5-5-9-9 
C|10\4-4-44-44-10--10-10\4-4-44-44-10--10-10\5-55-55-10--10-10\5-5-9-9 
                      x2|                       |           x2| 
D-----------------------|-----------------------|-------------| 
A-----------------------|-----------------------|-------------| 
F-----------------------|-----------------------|-------------| 
C-------------------4---|-------------------2---|-------------| x4 
G-------------------4---|-------------------2---|-------------| 
C-5-4-0-2-4-0-5-4-0-4---|-3-2-0-2-3-0-3-2-0-2---|-3-2-0-2-3-0-| 
pm.................     | .................     |.............|  
D-------------------------------|--------------| 
A-------------------------------|--------------| 
F-------------------------12----|--------12----| 
C-11--11-11-11-11--11--11-11----|-11--11-11----| 
G-9---9--9--9--9---9---9--9-----|-9---9--9-----| 
C-------------------------------|--------------| 
                    x2|                      |           x2| 
D---------------------|----------------------|-------------| 
A---------------------|----------------------|-------------| 
F---------------------|----------------------|-------------| 
C-------------5----4--|-------------3----2---|-------------| 
G-------------5----4--|-------------3----2---|-------------| 
C-5-4-0-2-4-0-5--0-4--|-3-2-0-2-3-0-3--0-2---|-3-2-0-2-3-0-| 
pm...........         | ...........          |.............|  
                      |                     |                      |           x2| 
D---------------------|---------------------|----------------------|-------------| 
A---------------------|---------------------|----------------------|-------------| 
F---------------------|---------------------|----------------------|-------------| 
C-------------5----4--|------------/7----4--|-------------3----2---|-------------| 
G-------------5----4--|------------/7----4--|-------------3----2---|-------------| 
C-5-4-0-2-4-0-5--0-4--|-5-4-0-2-4-0/7--0-4--|-3-2-0-2-3-0-3--0-2---|-3-2-0-2-3-0-| 
pm...........         | ...........         |............          | ............| 
D-------------------------------|--------------| 
A-------------------------------|--------------| 
F-------------------------12----|--------12----| 
C-11--11-11-11-11--11--11-11----|-11--11-11----| 
G-9---9--9--9--9---9---9--9-----|-9---9--9-----| 
C-------------------------------|--------------| 
D|---------------------------------------------------------------------| 
A|---------------------------------------------------------------------| 
F|---------------------------------------------------------------------| 
C|10\4-4-44-44-10--10-10\4-4-44-44-10--10-10\5-55-55-10--10-10\5-5-9-9-| x4 
G|10\4-4-44-44-10--10-10\4-4-44-44-10--10-10\5-55-55-10--10-10\5-5-9-9-| 
C|10\4-4-44-44-10--10-10\4-4-44-44-10--10-10\5-55-55-10--10-10\5-5-9-9-| 
D---------------------------------------------------- 
A---------------------------------------------------- 
F---------------------------------------------------- 
C-------------------------------------------0-2--3--- 
G-------------------------------------------0-2--3--- 
C-10----11----14--15--16------9----10-------0-2--3--- 
 trem picking............................. 
D-------------------------------------------- 
A-------------------------------------------- 
F-------------------------------------------- 
C-7--4--0-2h4-4/5\4-0--2h4-4/5\4-0--2h4-4/7-- 
G-7--4--0-2h4-4/5\4-0--2h4-4/5\4-0--2h4-4/7-- 
C-7--4--0-2h4-4/5\4-0--2h4-4/5\4-0--2h4-4/7-- 
D-------------------------------------------- 
A-------------------------------------------- 
F-------------------------------------------- 
C-9--4--0-2h4-4/5\4-0--2h4-4/5\4-0--2h4-4/7-- 
G-9--4--0-2h4-4/5\4-0--2h4-4/5\4-0--2h4-4/7-- 
C-9--4--0-2h4-4/5\4-0--2h4-4/5\4-0--2h4-4/7-- 
D-------------------------------------------- 
A-------------------------------------------- 
F-------------------------------------------- 
C-7--4--0-2h4-4/5\4-0--2h4-4/5\4-0--2h4-4/7-- 
G-7--4--0-2h4-4/5\4-0--2h4-4/5\4-0--2h4-4/7-- 
C-7--4--0-2h4-4/5\4-0--2h4-4/5\4-0--2h4-4/7-- 
D--------------------------------------------------- 
A--------------------------------------------------- 
F--------------------------------------------------- 
C-9--4--0-2h4-4/5\4-0--2h4-4/5\4-0--2h4-4-4-4-4-4-4- 
G-9--4--0-2h4-4/5\4-0--2h4-4/5\4-0--2h4-4-4-4-4-4-4- 
C-9--4--0-2h4-4/5\4-0--2h4-4/5\4-0--2h4-4-4-4-4-4-4- 
                                      pm........... 
Solo.. a weird one, needs a delay pedal that can loop 
Record this bit onto the delay pedal. then have that looping 
D------------------------ 
A------------------------ 
F-/11---11---11---11----- 
C------------------------ 
G------------------------ 
C------------------------ 
then play 
D---------------------------------------- 
A---------------------------------------- 
F-/10---10---10---10---10/14---14---14--- 
C---------------------------------------- x2 
G---------------------------------------- 
C---------------------------------------- 
D--10---10---9---9---9---9---9---9---8---8---8---8---8/12---12---12--- 
A--------------------------------------------------------------------- 
F--------------------------------------------------------------------- 
C--------------------------------------------------------------------- 
G--------------------------------------------------------------------- 
C--------------------------------------------------------------------- 
D--9---9---9---9---9^^^9^^^10^^^9---8---8---8---8---8/12---12---12---- 
A--------------------------------------------------------------------- 
F------------------gradual-bend--------------------------------------- 
C--------------------------------------------------------------------- 
G--------------------------------------------------------------------- 
C--------------------------------------------------------------------- 
D--14p12h14---14---14---14---14^^^14^^^15---13---13---13---13---13/17---17---17---17-- 
A------------------------------------------------------------------------------------- 
F------------------------------------------------------------------------------------- 
C------------------------------------------------------------------------------------- 
G------------------------------------------------------------------------------------- 
C------------------------------------------------------------------------------------- 
D--14---14---14---14---14---14^^^14^^^15---13---13---13---13---13/17---17---17^^^18------ 
A---------------------------------------------------------------------------------------- 
F---------------------------------------------------------------------------------------- 
C---------------------------------------------------------------------------------------- 
G---------------------------------------------------------------------------------------- 
C--------------------------------------------------------------------------------x\\\\\-- 
                                                                            pickscrape 
* delay loop off * 
Wipe that smile off your face! 
D-----------------------------------------------| 
A-----------------------------------------------| 
F-----------------------------------------------| 
C-----------------------------------------------| x3 
G-----------------------------------------------| 
C-2--2h3p2p0-2--2h3p2p0-2--2h3p2p0-2/10--10--0--| 
D----------------------------------- 
A----------------------------------- 
F----------------------------------- 
C-----------------------8--7--8--7-- 
G-----------------------8--7--8--7-- 
C-2--2h3p2p0-2--2h3p2p0-8--7--8--7-- 
                          x3| 
D---------------------------|------------------------------| 
A---------------------------|------------------------------| 
F---------------------------|------------------------------| 
C-2--0--2--0--2--0--/10--10-|-2--0--2--0--/10--10--10--10--| 
G-2--0--2--0--2--0--/10--10-|-2--0--2--0--/10--10--10--10--| 
C-2--0--2--0--2--0--/10--10-|-2--0--2--0--/10--10--10--10--| 
D|---------------------------------------------------------------------| 
A|---------------------------------------------------------------------| 
F|---------------------------------------------------------------------| 
C|10\4-4-44-44-10--10-10\4-4-44-44-10--10-10\5-55-55-10--10-10\5-5-9-9-| x8 
G|10\4-4-44-44-10--10-10\4-4-44-44-10--10-10\5-55-55-10--10-10\5-5-9-9-| 
C|10\4-4-44-44-10--10-10\4-4-44-44-10--10-10\5-55-55-10--10-10\5-5-9-9-| 
D------------------------------------------- 
A------------------------------------------- 
F------------------------------------------- 
C------------------------------------------- 
G------------------------------------------- 
C-10----11----14--15--16------9----10------- 
 trem picking............................. 
D--------------------------------- 
A--------------------------------- 
F--------------------------------- 
C-2---2---2---2------4-----4-4-- 
G-2---2---2---2------4-----4-4-- 
C-2---2---2---2------4-----4-4--