Part : Guitar 
Tuning: CGCFAD 
Tabbed: Sam Price aka Bluey 
Email :  
Visit : www.tooltabs.net/cog/ 
Legend 
nh - natural harmonic   ph - pinch harmonic 
pm - palm mute          x - muted string 
h - hammer on           p - pull off 
\\ - slide down         // - slide up 
b - bend                ~~ - vibrato 
<7> - natural harmonic  x/// - pick scrape (directions same as slide) 
Part 1 
Intro 
Delay 
D----------------------------------- 
A----------------------------------- 
F-----8-------------8----------8---- 
C-0-0-----------0-0---0----0-0---0-- 
G----------------------------------- 
C----------------------------------- 
D-------| 
A-------| 
F-----8-| 
C-0-0---| 
G-------| 
C-------| 
Its hard to tell whats delay and whats not here 
so for now: it contains these riffs in this order. 
Verse 1 
D--------------------------------- 
A--------------------------------- 
F-----8-----9-8-------5-------10-- 
C-0-0-----0-------0-0-----0-0----- 
G--------------------------------- 
C--------------------------------- 
Chorus 
D----------------------------------|------------- 
A----------------------------------|------------- 
F-7-----7-----9-----9-----9-7------|--9b10r9----- 
C---0-0---0-0---0-0---0-0-----0-0--|------------- 
G----------------------------------|------------- 
C----------------------------------|------------- 
Verse 2 
D--------------------------------- 
A--------------------------------- 
F-----8-----9-8-------5-------10-- 
C-0-0-----0-------0-0-----0-0----- 
G--------------------------------- 
C--------------------------------- 
Chorus 
D----------------------------------|------------- 
A----------------------------------|------------- 
F-7-----7-----9-----9-----9-7------|--9b10r9----- 
C---0-0---0-0---0-0---0-0-----0-0--|------------- 
G----------------------------------|------------- 
C----------------------------------|------------- 
Interlude 1                   x3| 
D-------------------------------|-----------------| 
A-------------------------------|-----------------| 
F-------------------------------|-----------------| 
C-------------------------------|-0-0--12--0--12--| x2 
G---6-----6-----6-----6--3-3///-|-0-0--12--0--12--| 
C-0---0-0---0-0---0-0-----------|-0-0--12--0--12--| 
D----------------|------------------|----------- 
A----------------|------------------|----------- 
F----------------|------------------|----------- 
C-0-0--12--0--12-|--0-0--13--0---13-|--0-0--12-- 
G-0-0--12--0--12-|--0-0--13--0---13-|--0-0--12-- 
C-0-0--12--0--12-|--0-0--13--0---13-|--0-0--12-- 
Interlude 2 
D-------------------------------------- 
A-------------------------------------- 
F-------------------------------------- 
C-0--10--0--12--0--10--13-13--13-12-10-- 
G-0--10--0--12--0--10--13-13--13-12-10-- 
C-0--10--0--12--0--10--13-13--13-12-10-- 
D-------------------------------|------------------------- 
A-------------------------------|------------------------- 
F-------------------------------|------------------------- 
C-0--3--0--5--0--3--6-6--6-5-3--|-0-3--0-5--0-3--6--6--6-- 
G-0--3--0--5--0--3--6-6--6-5-3--|-0-3--0-5--0-3--6--6--6-- 
C-0--3--0--5--0--3--6-6--6-5-3--|-0-3--0-5--0-3--6--6--6-- 
Part 2 
D-------------------------------------------------| 
A-------------------------------------------------| 
F-------------------------------------------------| 
C---0-----0-----0-----0-----0-----0-----0-----0---| 
G-----0-----0-----0-----0-----0-----0-----0-----0-| 
C-0-----0-----1-----1-----3-----3----/5----/6-----| 
#plam mute........................................ 
D-------0--------0-0-0--| 
A-------3--------5-3-5--| 
F-------5--------5-5-5--| x2 
C-0--0------0--0--------| 
G-0--0------0--0--------| 
C-0--0------0--0--------| 
 for this bit I have no idea.. meh, this sounds ok-ish 
D---0------0---- 
A-----3------3-- 
F-------5------- 
C-0------------- 
G--------------- 
C--------------- 
 p.m............ 
repeat some of the older bits 
                   x2|          x2|          x2| 
D-----0-------0-0-0--|------------|------------| 
A-----3-------5-3-5--|------------|------------| 
F-----5-------5-5-5--|------------|------------| 
C-0-------0----------|-7--7--7--7-|-8--8--8--8-| x2 
G-0-------0----------|-7--7--7--7-|-8--8--8--8-| 
C-0-------0----------|-7--7--7--7-|-8--8--8--8-| 
STRETCH! 
D---------------------------------| 
A---------------------------------| 
F---------------------------------| 
C-0--0--1--1--1--1/3--3--3--5-3-6-| x4 
G-0--0--1--1--1--1/3--3--3--5-3-6-| 
C-0--0--1--1--1--1/3--3--3--5-3-6-| 
D-------------------------| 
A-------------------------| 
F-------------------------| 
C-------------------------| x4 
G---5-----5-----7-----7p5-| 
C-0---0-0---0-0---0-0-----| 
D-------------------------| 
A-------------------------| 
F---7-----7-----9-----9p7-| 
C-0---0-0---0-0---0-0-----| x2 
G-------------------------| 
C-------------------------| 
D---10-----10-----12-----12p10----10-----10-----12-----12b13r12- 
A--------------------------------------------------------------- 
F-7----7-7----7-7----7-7--------7----7-7----7-7----7-7---------- 
C--------------------------------------------------------------- 
G--------------------------------------------------------------- 
C--------------------------------------------------------------- 
                                 x3| 
D----------------------------------|-----------------------------------| 
A----------------------------------|-----------------------------------| 
F----------------------------------|-----------------------------------| 
C-0--0--0-8--8--8--3--3--3--5-3-6--|-0--0--0-1--1--1-1/3--3--3--5-3-6--| x2 
G-0--0--0-8--8--8--3--3--3--5-3-6--|-0--0--0-1--1--1-1/3--3--3--5-3-6--| 
C-0--0--0-8--8--8--3--3--3--5-3-6--|-0--0--0-1--1--1-1/3--3--3--5-3-6--|