Part : Guitar 
Tuning: CGCFAD (I now think its actually in CGCGBD, but i still tabbed it CGCFAD) 
Tabbed: Sam Price aka Bluey 
Email : [email protected] 
Visit : www.tooltabs.net/cog/ 
Legend 
nh - natural harmonic   ph - pinch harmonic 
pm - palm mute          x - muted string 
h - hammer on           p - pull off 
\\ - slide down         // - slide up 
b - bend                ~~ - vibrato 
<7> - natural harmonic  x/// - pick scrape (directions same as slide) 
Bass Intro 
D---------------------------------------------- 
A---------------------------------------------- 
F---------------------------------------------- 
C-8p7h8------8p7h8------8p7h8--8p7h10--8p7h8--- 
G-0----------0----------0------0-------0------- 
C---------------------------------------------- 
D--------------------------------------------------------- 
A--------------------------------------------------------- 
F--------------------------------------------------------- 
C-8p7h8--8p7h8--8p7h8--8p7h8--8p7h8--8p7h8--8p7h10--8p7h8- x3 
G-0------0------0------0------0------0------0-------0----- 
C--------------------------------------------------------- 
D--------------------------------------------------- 
A--------------------------------------------------- 
F--------------------------------------------------- 
C-8p7h8--8p7h8--8p7h8--8p7h8--8p7h8--8p7h8--8p7h10-- 
G-0------0------0------0------0------0------0---0--- 
C--------------------------------------------------- 
I'm too lazy to tab out the right number of strums,  
its easy enough to figure out. 
              |                          x3| 
D-------------|----------------------------| 
A-------------|------3---------------------| 
F-------------|------3---------------------| 
C-5-5-5--0--1-|-1----1--1---1---/5--0--1---| 
G-5-5-5--0--1-|-1----1--1---1---/5--0--1---| 
C-5-5-5--0--1-|-1----1--1---1---/5--0--1---| 
D---------- 
A---------- 
F---------- 
C-8p7h8p7-- x8 
G-0-------- 
C---------- 
D-------- 
A-------- 
F-------- 
C-8p7h8-- x16 
G-0------ 
C-------- 
D---------- 
A---------- 
F---------- 
C-8p7h8p7-- x15 
G-0-------- 
C---------- 
D-------------|----------------------------|----------------------------| 
A-------------|------3---------------------|------3---------------------| 
F-------------|------3---------------------|------3---------------------| 
C-5-5-5--0--1-|-1--1-1--1---1---/5--0--1---|-1--1-1--1---1---/5--7\0--1-| 
G-5-5-5--0--1-|-1--1-1--1---1---/5--0--1---|-1--1-1--1---1---/5--7\0--1-| 
C-5-5-5--0--1-|-1--1-1--1---1---/5--0--1---|-1--1-1--1---1---/5--7\0--1-| 
D----------------------------|----------------------------| 
A------3---------------------|------3---------------------| 
F------3---------------------|------3---------------------| 
C-1--1-1--1---1---/5--3--0---|-1--1-1--1---1---/5--0--1---| 
G-1--1-1--1---1---/5--3--0---|-1--1-1--1---1---/5--0--1---| 
C-1--1-1--1---1---/5--3--0---|-1--1-1--1---1---/5--0--1---| 
             x8|         x4| 
D--------------|-----------| 
A--------------|-----------| 
F--------------|-----------| 
C--5-7--7------|-----------| 
G--5-7--7------|-5-7-5-8-7-| 
C--5-7--7------|-5-7-5-8-7-| 
               pm..........  
             x4|         x4| 
D--------------|-----------| 
A--------------|-----------| 
F--------------|-----------| 
C--5-7--7------|-----------| x2 
G--5-7--7------|-5-7-5-8-7-| 
C--5-7--7------|-5-7-5-8-7-| 
               pm..........  
D-------------- 
A-------------- 
F-------------- 
C--5-7--7------ x3 
G--5-7--7------ 
C--5-7--7------ 
D-------------|--------------------------------|--------------------------------| 
A-------------|--------------------------------|--------------------------------| 
F-------------|--------------------------------|--------------------------------| 
C-5-5-5--0--1-|-1--1-1/10--\1---/8-\1--5--0-1--|-1--1-1/10--\1---/8-\1--5--7\0--| 
G-5-5-5--0--1-|-1--1-1/10--\1---/8-\1--5--0-1--|-1--1-1/10--\1---/8-\1--5--7\0--| 
C-5-5-5--0--1-|-1--1-1/10--\1---/8-\1--5--0-1--|-1--1-1/10--\1---/8-\1--5--7\0--| 
D--------------------------------|--------------------------------|-------------------------------| 
A--------------------------------|--------------------------------|-------5-----------------------| 
F--------------------------------|--------------------------------|-------4-----------------------| 
C-1--1-1/10--\1---/8-\1--5--3-0--|-1--1-1/10--\1---/8-\1--5--0-1--|--3-3-3--3-3--3-3--3-3--5-5\0--| 
G-1--1-1/10--\1---/8-\1--5--3-0--|-1--1-1/10--\1---/8-\1--5--0-1--|--3-3-3--3-3--3-3--3-3--5-5\0--| 
C-1--1-1/10--\1---/8-\1--5--3-0--|-1--1-1/10--\1---/8-\1--5--0-1--|--3-3-3--3-3--3-3--3-3--5-5\0--| 
D--------------------------------|--------------------------------| 
A--------------------------------|--------------------------------| 
F--------------------------------|--------------------------------| 
C-1--1-1/10--\1---/8-\1--5--0-1--|-1--1-1/10--\1---/8-\1--5--7\0--| 
G-1--1-1/10--\1---/8-\1--5--0-1--|-1--1-1/10--\1---/8-\1--5--7\0--| 
C-1--1-1/10--\1---/8-\1--5--0-1--|-1--1-1/10--\1---/8-\1--5--7\0--| 
D--------------------------------|--------------------------------|----------------- 
A--------------------------------|--------------------------------|--------3-------- 
F--------------------------------|--------------------------------|--------3-------- 
C-1--1-1/10--\1---/8-\1--5--3-0--|-1--1-1/10--\1---/8-\1--5--0-1--|--1--1--1-------- 
G-1--1-1/10--\1---/8-\1--5--3-0--|-1--1-1/10--\1---/8-\1--5--0-1--|--1--1--1-------- 
C-1--1-1/10--\1---/8-\1--5--3-0--|-1--1-1/10--\1---/8-\1--5--0-1--|--1--1--1--------