Part : Guitar 
Tuning: CGCFAD 
Tabbed: Sam Price aka Bluey, and Marcus Allison aka OGT 
Email :  
Visit : www.tooltabs.net/cog/ 
Legend 
nh - natural harmonic   ph - pinch harmonic 
pm - palm mute          x - muted string 
h - hammer on           p - pull off 
\\ - slide down         // - slide up 
b - bend                ~~ - vibrato 
<7> - natural harmonic  x/// - pick scrape (directions same as slide) 
D---------------------------- 
A---------------------------- 
F---------------------------- 
C---------------------------- 
G---------------------------- 
C--12--\\\0------------------ 
                    x3| 
D---------------------|--------------------------- 
A---------------------|--------------------------- 
F-------2--------2----|-------2--------2b3r2------ 
C-----0--------0------|-----0--------0------------ 
G---1--------1--------|---1--------1-------------- 
C-0--------0----------|-0--------0---------------- 
 let ring.............|.................... 
Pause.............. 
                      x3| 
D-----------------------|--------------------------- 
A-----------------------|-----------------13-------- 
F--------14--------14---|-------14------------------ 
C------0---------0------|-----0---------0----------- 
G---13--------13--------|---13-------13------------- 
C-0---------0-----------|-0--------0---------------- 
 let ring...............|.................... 
                      x3| 
D-----------------------|--------------------------- 
A-----------------------|--------------------------- 
F--------14--------14---|-------14------------------ 
C------0---------0------|-----0---------0----------- 
G---13--------13--------|---13-------13---15-------- 
C-0---------0-----------|-0--------0---------------- 
 let ring...............|.................... 
does those 2 bits a whole lot of times 
then the low bit once  
then back up to the high bits again until the loud burst bit... 
D--------------------| 
A--------------------| 
F-15-15-15-15-14-14--| 
C-0--0--0--0--0--0---| 
G-13-13-13-13-12-12--| 
C-0--0--0--0--0--0---| 
                       x3| 
D------------------------|------------------ 
A------------------------|------------------ 
F-13--13--13--13--13-13--|-13--13--14---14\- 
C-0---0---0---0---0--0---|-0---0---0----0--- 
G-12--12--12--12--12-12--|-12--12--12---12\- 
C-0---0---0---0---0--0---|-0---0---0----0--- 
Chorus, not too sure about this bit, sounds good though 
D------------------------------------------------------- 
A-------------11-11-11-11-11---------11-11-11-11-11----- 
F-----14--14--14-14-14-14-14-14--14--14-14-14-14-14-14-- 
C-0---0---0---0-----------0--0---0---0-----------0--0--- 
G-0----------------------------------------------------- 
C-0----------------------------------------------------- 
D-----------------------------------------------------| 
A-------------11-11-11-11-11--------------------------| 
F-----14--14--14-14-14-14-14-14-----------------------| 
C-0---0---0---0-----------0--0---8--8-8-8-10--10--10--| 
G-0------------------------------8--8-8-8-10--10--10--| 
C-0------------------------------8--8-8-8-10--10--10--| 
Tried to save...      x3| 
D-----------------------|----------------------------------| 
A-----------------------|----------------------------------| 
F--------14--------14---|-------14--------14---------------| 
C------0---------0------|-----0---------0----0-3--3-3-3-0--| x2 
G---13--------13--------|---13-------13------0-3--3-3-3-0--| 
C-0---------0-----------|-0--------0---------0-3--3-3-3-0--| 
D--------------|-----------------|---------------------| 
A-----------11-|--------------11-|---------11--11--10--| 
F-15--15-15-14-|-15-15-15--15-14-|-15--15--14--12--10--| 
C-0---0--0--0--|-0--0--0---0--0--|-0---0---0-----------| 
G--------------|-----------------|---------------------| 
C--------------|-----------------|---------------------| 
D--------------|-----------------------|----------------- 
A-----------11-|--------------11-------|---------11--8--- 
F-15--15-15-14-|-15-15-15--15-14/17-17-|-15--15--14--10-- 
C-0---0--0--0--|-0--0--0---0--0--0--0--|-0---0---0---0--- 
G--------------|-----------------------|----------------- 
C--------------|-----------------------|----------------- 
D------------------------------- 
A------------------------------- 
F-8p7---5h7---5p3---5h7--------- x8 (first time this is  
C-----0-----0-----0-----0-5h7-0-    layered with the end  
G-------------------------------    of the line above) 
C-------------------------------   
D------------------------------- 
A------------------------------- 
F-8p7---5h7---5p3---2h3---2p0--- 
C-----0-----0-----0-----0-----0- 
G------------------------------- 
C------------------------------- 
Crowd in softly 
                x2| 
D-----------------|-----------------|------------------| 
A-----------------|-----------------|------------------| 
F-----------------|-----------------|------------------| 
C-----------------|-----------------|------------------| 
G-----------------|-----------------|------------------| 
C-12-10-0-10-12-0-|-15-12-0-10-12-0-|-12-10-12-13-12-0-| 
D-------------------------------|-------------------------------| 
A-------------------------------|-------------------------------| 
F-8p7---5h7---5p3---5h7---------|-8p7---5h7---5p3---2h3---2p0---| 
C-----0-----0-----0-----0-5h7-0-|-----0-----0-----0-----0-----0-| 
G-------------------------------|-------------------------------| 
C---------------------------------------------------------------| 
                      x3| 
D-----------------------|------------------------- 
A-----------------------|------------------------- 
F-----9--9-9-9--9--9-9--|----9-------------------- 
C--8--8--8-8-8--8--8-8--|-8--8--8/10--10-10-10---- 
G--8--8--8-8-8--8--8-8--|-8--8--8/10--10-10-10---- 
C--8--8--8-8-8--8--8-8--|-8--8--8/10--10-10-10---- 
Reflection anyone? 
D----------------------------------------------------------------------| 
A----------------------------------------------------------------------| 
F-------10--10--10p9-----------------------10--10--10p9----------------| 
C-0--0----------------0--1--1--1/5---0--0----------------0--1--1--1/8--| x4 
G-0--0----------------0--1--1--1/5---0--0----------------0--1--1--1/8--| 
C-0--0----------------0--1--1--1/5---0--0----------------0--1--1--1/8--| 
Chorus 
D------------------------------------------------------- 
A-------------11-11-11-11-11---------11-11-11-11-11----- 
F-----14--14--14-14-14-14-14-14--14--14-14-14-14-14-14-- 
C-0---0---0---0-----------0--0---0---0-----------0--0--- 
G-0----------------------------------------------------- 
C-0----------------------------------------------------- 
D-----------------------------------------------------| 
A-------------11-11-11-11-11--------------------------| 
F-----14--14--14-14-14-14-14-14-----------------------| 
C-0---0---0---0-----------0--0---8--8-8-8-10--10--10--| 
G-0------------------------------8--8-8-8-10--10--10--| 
C-0------------------------------8--8-8-8-10--10--10--| 
D------------------------------ 
A------------------------------ 
F------------------------------ 
C--0--------------------------- 
G--0--------------------------- 
C--0--------------------------- 
  hold chord