Song : Moo 
Part : Guitar 
Tuning: CGCFAD 
Tabbed: Sam Price aka Bluey 
Email :  
Visit : www.tooltabs.net/cog/ 
Legend 
nh - natural harmonic   ph - pinch harmonic 
pm - palm mute          x - muted string 
h - hammer on           p - pull off 
\\ - slide down         // - slide up 
b - bend                ~~ - vibrato 
<7> - natural harmonic  x/// - pick scrape (directions same as slide) 
D--------------------------------------- 
A--------------------------------------- 
F--------------------------------------- 
C---3-------2-------3-------2----------- 
G--------------------------------------- 
C-2-----2-2-----2-2-----2-2---2p0h3p2p0- 
D-------------------------------------- 
A-------------------------------------- 
F-------------------------------------- 
C--3-------2-------3-------2----------- 
G-------------------------------------- 
C------2-2-----2-2-----2-2---2p0h3p2p0- 
D-------------------------------------- 
A-------------------------------------- 
F-------------------------------------- 
C--3-------2-------3-------2----------- 
G-------------------------------------- 
C------2-2-----2-2-----2-2---2p0h3p2p0- 
D------------------------------------ 
A------------------------------------ 
F------------------------------------ 
C--3-------2-----2/8--0--3p2p0h3/5p0- 
G--------------2-2/8--0--3p2p0h3/5p0- 
C------2-2-----2-2/8--0--3p2p0h3/5p0- 
D----------------------------- 
A----------------------------- 
F----------------------------- 
C--3-----2-----3-----2--2/3--- 
G-----2-----2-----2-----2/3--- 
C-----2-----2-----2-----2/3--- 
D-------------------------------- 
A-------------------------------- 
F-------------------------------- 
C--3-----2-----3-----2--2/3/5p0-- 
G-----2-----2-----2-----2/3/5p0-- 
C-----2-----2-----2-----2/3/5p0-- 
D----------------------------- 
A----------------------------- 
F----------------------------- 
C--3-----2-----3-----2--2/3--- 
G-----2-----2-----2-----2/3--- 
C-----2-----2-----2-----2/3--- 
D-------------------------- 
A-------------------------- 
F-------------------------- 
C--3-----2-----3--3--3--3-- 
G-----2-----2--3--3--3--3-- 
C-----2-----2--3--3--3--3-- 
D----------------------------- 
A----------------------------- 
F----------------------------- 
C--3-----2-----3-----2--2/3--- 
G--0--2-----2-----2-----2/3--- 
C--0--2-----2-----2-----2/3--- 
D-------------------------------- 
A-------------------------------- 
F-------------------------------- 
C--3-----2-----3-----2--2/3/5p0-- 
G-----2-----2-----2-----2/3/5p0-- 
C-----2-----2-----2-----2/3/5p0-- 
D----------------------------- 
A----------------------------- 
F----------------------------- 
C--3-----2-----3-----2--2/3--- 
G-----2-----2-----2-----2/3--- 
C-----2-----2-----2-----2/3--- 
D------------------------------- 
A------------------------------- 
F------------------------------- 
C--3-----2--2/8--0--3p2p0h3/5p0- 
G-----2-----2/8--0--3p2p0h3/5p0- 
C-----2-----2/8--0--3p2p0h3/5p0- 
D--0-0--x--0-0--x--0-0--x--0--0--0-----| 
A--0-0--x--0-0--x--0-0--x--0--0--0-----| 
F--0-0--x--0-0--x--0-0--x--0--0--0-----| 
C--2-2--x--2-2--x--2-2--x--3--3--3---0-| x4 
G--2-2--x--2-2--x--2-2--x--3--3--3---0-| 
C--2-2--x--2-2--x--2-2--x--3--3--3---0-| 
D---------------------------- 
A---------------------------- 
F---------------------------- 
C---------------------------- 
G---------------------------- 
C---------------------------- 
                          x2 
D------0--------------------|------0-----0--0--0-----| 
A------0--------------------|------0-----0--0--0-----| 
F------0--------------------|------0-----0--0--0-----| 
C---------------------------|------------3--3--3---0-| 
G---------------------------|---------2--3--3--3---0-| 
C-0-2-----0-2---2-1-0-3-3---|-0-2-----2--3--3--3---0-| 
D--0-0--x--0-0--x--0-0--x--0--0--0-----| 
A--0-0--x--0-0--x--0-0--x--0--0--0-----| 
F--0-0--x--0-0--x--0-0--x--0--0--0-----| 
C--2-2--x--2-2--x--2-2--x--3--3--3---0-| x4 
G--2-2--x--2-2--x--2-2--x--3--3--3---0-| 
C--2-2--x--2-2--x--2-2--x--3--3--3---0-| 
D---------------------------- 
A---------------------------- 
F---------------------------- 
C---------------------------- 
G---------------------------- 
C---------------------------- 
                          x3 
D------0--------------------|--------------------------| 
A------0--------------------|--------------------------| 
F------0--------------------|--------------------------| 
C---------------------------|---2--2--0--0--2/7-7--7-7-| 
G---------------------------|---2--2--0--0--2/7-7--7-7-| 
C-0-2-----0-2---2-1-0-3-3---|-0-2--2--0--0--2/7-7--7-7-| 
D---------------------------------------------------| 
A---------------------------------------------------| 
F---------------------------------------------------| 
C-2--2--2--2--2--3--5--3--3/6--6--3--3--3--6--3--5--| 
G-2--2--2--2--2--3--5--3--3/6--6--3--3--3--6--3--5--| 
C-2--2--2--2--2--3--5--3--3/6--6--3--3--3--6--3--5--| 
D------------------------------------------------------------| 
A------------------------------------------------------------| 
F------------------------------------------------------------| 
C-2--2--2--2--2--3--5--3--3/6--6--0--------------------------| 
G-2--2--2--2--2--3--5--3--3/6--6--0--------------------------| 
C-2--2--2--2--2--3--5--3--3/6--6--0--8-8-8-8-8-8-8h9-9-9-9-9-|