This is one of Jebediah's crowd pleasing songs which hasn't been  
released. I figured out the tab from when they played on recovory a while back. 
You'll have to figure out the strumming by yourself. I also haven't figured out 
all the little fills that Chris does during the verses. 
intro with Chris (No distortion) 
E---2-------0-------2------------ 
B---3-------0-------2------------ 
G---2-------1-------3------------ 
D---0-------2-------4------------ 
A---0-------2-------4------------ 
E-----------0-------2------------ 
Kevin joins Chris after a few bars and plays the same riff  
with powerchords (with distortion) 
E--------------------------------------- 
B--------------------------------------- 
G---7-------9--------------------------- 
D---7-------9-------4------------------- 
A---5-------7-------4------------------- 
E-------------------2------------------- 
Main riff 
E--------------------------------------- 
B--------------------------------------- 
G----3--4-----7-----7------------------- 
D-4--3--4--4--7--4--7--4---------------- 
A-4--1--2--4--5--4--5--4---------------- 
E-2--------2-----2-----2---------------- 
chorus (this might be wrong) 
E------------------------------------ 
B------------------------------------ 
G-4--7------------------------------- 
D-4--7--4--(x4)---4------------------ 
A-2--5--4---------4------------------ 
E-------2---------2------------------ 
The bit after the 2nd chorus 
E----------------------------------- 
B----------------------------------- 
G----4------------------------------ 
D-4--4------------------------------ 
A-4--2------------------------------ 
E-2--------------------------------- 
Backing for solo 
E----------------------------------- 
B----------------------------------- 
G--7-------------------------------- 
D--7--4----------------------------- 
A--5--4----------------------------- 
E-----2----------------------------- 
Solo 
E----------------------------------------------------- 
B----------------------------------------------------- 
G------------9-11-11-11^12^11-11^12^11 11^12^11------- 
D--12-(x15)------------------------------------------- 
A----------------------------------------------------- 
E----------------------------------------------------- 
Play the solo lots of times then play: 
E----------------------------------------------------------------------------- 
B---------------------------------------------14-14-15-14--------14----14----- 
G------------9-11-11-11^12^11-11^12^11 11^12--------------14--14----14----14-- 
D--12-(x15)------------------------------------------------------------------- 
A----------------------------------------------------------------------------- 
E----------------------------------------------------------------------------- 
End (I don't really know this bit yet) 
E--------------------------------------------------------------- 
B--------------------------------------------------------------- 
G-4--5--6--7---------------------------------------------------- 
D-4--5--6--7-etc.----------------------------------------------- 
A-2--3--4--5---------------------------------------------------- 
E--------------------------------------------------------------- 
-- 
Send all comments to my brother at: [email protected]