Here is the second track of Twitch.  If you don't have it then go  
out and buy it. 
Send all hate mail to my brother at: [email protected] 
(I don't have an account) 
Intro (Lead Guitar) 
E---------------------------------------------------------------- 
B---------------------------------------------------------------- 
G-11-11-12-12-14-14-16-16-16-17-16-14-14-14^16-12---------------- 
D--0--0--0--0--0--0--0--0--0--0--0--0--0--0-----0---------------- 
A---------------------------------------------------------------- 
E---------------------------------------------------------------- 
The Rhythm Guitar plays the chords D-G-A in the verse as well as 
the chorus.  You can play them as open chords which would be 
E----3------3-------0------- 
B----2------0-------2------- 
G----3------0-------2------- 
D----0------0-------2------- 
A----0------2-------0------- 
E-----------3--------------- 
or as power chords which I prefer because it doesn't sound as muddy 
E--------------------------------- 
B--------------------------------- 
G-7-7-7-7-7-7-7-7----------------- 
D-7-7-7-7-7-7-7-7-5-5-5-5-7-7-7-7- 
A-5-5-5-5-5-5-5-5-5-5-5-5-7-7-7-7- 
E-----------------3-3-3-3-5-5-5-5- 
Verse (Lead Guitar) 
E-------------------------------- 
A-------------------------------- 
G--11-11-11-11--11-11-9-9-9-9^11- 
D---0--0--0--0---0--0-0-0-0-0---- 
A-------------------------------- 
E-------------------------------- 
After the chorus the rhythm guitar plays this heavy bit  
E---------------------------------------------------------------- 
B---------------------------------------------------------------- 
G---------7-x---------------------------------------------------- 
D-4-4-x-x-7-x-7--7-7-7/9-9--------------------------------------- 
A-4-4-x-x-5-x-7--7-7-7/9-9--------------------------------------- 
E-2-2-x-x-----5--5-5-5/7-7--------------------------------------- 
The lead guitar bends a couple of strings in the heavy bit 
 (You'll have to find out the timing on your own) 
E---------------------------------------------- 
B---------------------------------------------- 
G----4b-----------6b--------------------------- 
D---------------------------------------------- 
A---------------------------------------------- 
E---------------------------------------------- 
Here's the solo (the rhythm just plays D-G-A) 
E----------------------------------------------------------------- 
B-----------------------------------------------------------------Play this  
G--11-11-11^12^11-14-11-11^12^11-11----------------14-------14----twice 
D-----------------------------------12/14-12-12-12----12-12----12- 
A----------------------------------------------------------------- 
E----------------------------------------------------------------- 
E----------------------------------------------------------------- 
B----------------------------------------------------------------- 
G-11-------------------------------------------------------------- 
D----14-14-14-14/16-14-12-12-12-12-9^12-9^12-9^12-9-9-12---------- 
A----------------------------------------------------------------- 
E----------------------------------------------------------------- 
E----------------------------------------------------------------- 
B----------------------------------------------------------------- 
G-11-------------------------------------------------------------- 
D----14-14-14-14/16-14-12-12-12-12-12-12-16-16-14----------------- 
A-----------------------------------0--0--0--0--0----------------- 
E----------------------------------------------------------------- 
Thats it! 
Send all mail to: [email protected]