Tabbed By Andrew Schultz  ([email protected]) 
Tuning: Standard 
Intro 
Lead Guitar 
e  --------------------------------------------- 
b  --7-7-5-5-7-5-7--8-8-7-7h8p7-5-7------------- 
g  --------------------------------------------- 
d  --------------------------------------------- 
a  --------------------------------------------- 
E  --------------------------------------------- 
e  -------------------------------7------------- 
b  --7-7-5-5-7-5-7--8-8-7-7h8p7-5--------------- 
g  --------------------------------------------- 
d  --------------------------------------------- 
a  --------------------------------------------- 
E  --------------------------------------------- 
Rhythm Guitar Played Through Most Of Song (Chords) 
e  --------------------------------------------- 
b  --------------------------------------------- 
g  -------------------------------------------- 
d  --9--6--2--9--6------------------------------ 
a  --9--6--2--9--6------------------------------ 
E  --7--4--0--7--4------------------------------ 
Next Lead Riff 
e  --------------------------------------------- 
b  --4-2-4-5-4-2-4------------------------------ 
g  ----------------4---------------------------- 
d  --------------------------------------------- 
a  --------------------------------------------- 
E  --------------------------------------------- 
e  --------------------------------------------- 
b  --4-2---5-4-2-4------------------------------ 
g  ------4---------4---------------------------- 
d  --------------------------------------------- 
a  --------------------------------------------- 
E  --------------------------------------------- 
Pre-Chorus (Chords) 
e  --------------------------------------------- 
b  --------------------------------------------- 
g  --------------------------------------------- 
d  --4--2--6------------------------------------ 
a  --4--2--6------------------------------------ 
E  --2--0--4------------------------------------ 
Another great Aussie band you have to checkout!