Song:   Ski Trip 
Artist: Jebediah 
Tab By: Michael Gooding 
Email:  [email protected] 
--Intro-- 
Guitar 1 
e|---------------------------------------------------| 
B|---------------------------------------------------| 
G|--9-9-9--8-8--6-6--4-4-4--2-2--4-4--9--9-9-9-9-9---| 
D|--9-9-9--8-8--6-6--4-4-4--2-2--4-4--9--9-9-9-9-9---| 
A|--7-7-7--6-6--4-4--2-2-2--0-0--2-2--7--7-7-7-7-7---| 
E|---------------------------------------------------| 
Guitar 2 
e|---------------------------------------------------| 
B|--9--9-9--7-7---5-5-5--4-4-4--4-5-5-4--5-5-5-5-5-5-| 
G|---------------------------------------------------| 
D|---------------------------------------------------| 
A|---------------------------------------------------| 
E|---------------------------------------------------| 
--Verse-- 
e|---------------------------------------------------| 
B|---------------------------------------------------| 
G|--4-4-4-4------------------------------------------| 
D|--4-4-4-4---4-4-4-4---7-7-7-7--7-7-7-7-------------| 
A|--2-2-2-2---4-4-4-4---7-7-7-7--7-7-7-7-------------| 
E|------------2-2-2-2---5-5-5-5--5-5-5-5-------------| 
--Chorus-- 
Guitar 1 
e|---------------------------------------------------| 
B|---------------------------------------------------| 
G|--9-9-9-9------------------------------------------| 
D|--9-9-9-9---9-9-9-9---7-7-7-7--7-7-7-7-------------| 
A|--7-7-7-7---9-9-9-9---7-7-7-7--7-7-7-7-------------| 
E|------------7-7-7-7---5-5-5-5--5-5-5-5-------------| 
e|---------------------------------------------------| 
B|---------------------------------------------------| 
G|--------------4-4-4-4-4---------------4-4-4-4-4----| 
D|--4-4-4-4-4---4-4-4-4-4---4-4-4-4-4---4-4-4-4-4----| 
A|--4-4-4-4-4---2-2-2-2-2---4-4-4-4-4---2-2-2-2-2----| 
E|--2-2-2-2-2---------------2-2-2-2-2----------------| 
Guitar 2 
e|---------------------------------------------------| 
B|--7-5-5--7-5-5--7/9--5-----------------------------| 
G|---------------------------------------------------| 
D|---------------------------------------------------| 
A|---------------------------------------------------| 
E|---------------------------------------------------| 
--Verse 2-- 
Guitar 2 fill in           | And just before the chorus 
e|-------------------------|--------------------------| 
B|-----9-------7-------9---|---------9----------------| 
G|--9-------9-------9------|-----9--------------------| 
D|-------------------------|--------------------------| 
A|-------------------------|--------------------------| 
E|-------------------------|--------------------------| 
--Chorus 2-- 
Guitar 2 - add this after the lead riff for chorus 1 
e|----------------------------------------------------| 
B|-----9-----9-----9-----5----------------------------| 
G|--9-----9-----9-------------------------------------| 
D|----------------------------------------------------| 
A|----------------------------------------------------| 
E|----------------------------------------------------| 
--Solo-- 
e|----------------------------------------------------| 
B|----9---7---9---10---9-9---7----9---7---9---10---9--| 
G|--9---9---9---9----9-----9----9---9---9---9----9----| 
D|----------------------------------------------------| 
A|----------------------------------------------------| 
E|----------------------------------------------------| 
e|----------------------------------------------------| 
B|----7---9---10--9-9-7-----7----7---7/9--------------| 
G|--9---9---9-------------9----9-----------9----------| 
D|----------------------------------------------------| 
A|----------------------------------------------------| 
E|----------------------------------------------------| 
===================================================================