I haven't transcribed it all, but what I have done should give you a  
basic idea of what's going on. 
Transcribed by Bonnie Mercer([email protected]) 
Corrections welcome 
MAIN RIFF 
1 + 2 + 3 + 4 + | 1 + 2 + 3 + 4 + | 1 + 2 + 3 + 4 + | 1 + 2 + 3 + 4 + | 
   /   / / / / |   / /   / / /   | 
MAIN LEAD RIFF 
E--------------------5------------------- 
B-5-5-6-6-8------5-8---3-5-3------------- 
G------------5-7-------------5-4-5-4-2-4- 
D---------------------------------------- 
A---------------------------------------- 
E---------------------------------------- (3x) 
CHORDS:                    
E--------------------------------------------- 
B-5-5-6-6-8-6-5-6-5-------5-6-5-6-8-8-8-6-5--- 
G-------------------5-4-5-------------------5-  
D--------------------------------------------- 
A--------------------------------------------- 
E--------------------------------------------- 
You better move your hand then 
You better know your next move 
Woke up and found the tattoo you promised to do 
Running there the delicate eyesight 
Special suicide then you said (3X) 
Then you said 
VARIATION OF MAIN LEAD RIFF 
You never send away for 
Just for the penalty of breaking 
No, no, no, no, no, no, no, no, no, no 
I should have just stayed where I was safer 
Special suicide then you said (3X) 
Then you said 
No I'm not a rescuer (3X) 
No I'm not  
You know I'm not 
VARIATION OF MAIN LEAD RIFF 
Maybe I should have done something 
Just another bit of something 
Should you have played to my caressor 
Or couldn't you just feel anything  
Special suicide then you said (3X) 
Then you said 
No I'm not a rescuer (3X) 
No I'm not  
You know I'm not