Guitar 1 (intro) plays mostly throughout 
               "At the start..." 
G--------------------------------------------------------- 
D------------------------------------------9-7------------ 
A---9---9---9---9----9---9------9---9---9---------9---9--- 
E-7---7---7---7----5---5------7---7---7---------5---5----- 
Guitar 2   ".....I can do it.." 
e----10-14-- 
B-12-------- 
G----------- 
D----------- 
Guitar 2  "Everything...." 
D----------                   D-9--7----------- 
A---9---9--       x 3         A---------9---9-- 
E-7---7----                   E-------5---5---- 
CHORUS 
G-------------------------5----     "I don't feel it.. 
D--9-----7-----5-----7----7----      Believe it..." 
A--9-----7-----5-----7----7---- 
E--7-----5-----3-----5--------- 
Guitar 1 (solo) 
G-------------------------------------------- 
D-14--12--11--12-----11--12--14--12--11--12-- 
A-------------------------------------------- 
G----------------------------14--12--11--12-- 
D-14--12--11--12-----11--12------------------ 
A-------------------------------------------- 
Distorted  
B-----------------------        B------------------- 
G-----------------------        G------------------- 
D-----------------------  x 3   D------------7-9-7-- 
A-12--12--9--14--12--9--        A-------7-9--------- 
E-10--10--7--12--10--7--        E-10-10------------- 
B----------------- 
G---7--9--10--9---    feedback/effects 
D-9---------------    (sliding down guitar string)  
A----------------- 
     "Are you in my....." 
       Heavy distort   "Understand...." 
G------------------------------------ 
D-7--7--7---------------------------- 
A----------9--9--9--9------9--9--9---       "Understand.." 
E------------------------------------