intro 
e|------------------------------------------------------------| 
B|------------------------------------------------------------| 
G|------------------------------------------------------------| 
D|------------------------------------------------------------| 
A|--8--7--------------------------------7--8--7---------------| 
E|--------8--7--5-----8--7--5--5--7--8------------------------| 
       "i'm just a back door	    to your front door... 
e|------------------------------------------------------------| 
B|------------------------------------------------------------| 
G|-10--9-----------------------------------9-10--9------------| 
D|--------10--9--7-----10--9--7--7--9--10---------------------| 
A|------------------------------------------------------------| 
E|------------------------------------------------------------| 
e|------------------------------------------------------------| 
B|------------------------------------------------------------| 
G|------------------------------------------------------------| 
D|------------------------------------------------------------| 
A|------------------------------------------------------------| 
E|-5--5--5-5-5-5-5--5--5-5-5-5-5--5--5-5-5-5-5--5--3-3-3------| 
   *  *  * * * * *  *  * * * * *  *  * * * * *  * 
e|------------------------------------------------------------| 
B|------------------------------------------------------------| 
G|------------------------------------------------------------| 
D|-5-5-5-7--7--7-7-7-7--7--5-5-5-7--7--7-7-7-7--7-------------| 
A|-5-5-5-7--7--7-7-7-7--7--5-5-5-7--7--7-7-7-7--7-------------| 
E|-3-3-3-5--5--5-5-5-5--5--3-3-3-5--5--5-5-5-5--5-------------| 
   Much to my protest          You wake and you make me stay... 
   Can you hear me scream?     Wanna push me back in now... 
   Go the bone		       Come the seas... 
Note    '*' = bend