Australia 
----------------------------------------------------------------------------- 
		MAGIC DIRT - 'Sparrow' 
----------------------------------------------------------------------------- 
from Freinds in Danger CD 
comments/discrepencies - [email protected] 
intro 
this is also played throughout the verses 
e|--------------------------------------------------------------------| 
B|------14-14--------14-------------14-14--------14-------------------| 
G|------------11-13------11---13----------11-13------11-13-11---------| 
D|-/-11--------------------------11-----------------------------------| 
A|--------------------------------------------------------------------| 
E|--------------------------------------------------------------------| 
segway into 'chorusy bit' 
e|--------------------------------------------------------------------| 
B|--------------------------------------------------------------------| 
G|---13-13-13-13-11--13-13-11-13-11-----------------------------------| 
D|-----------------------------------11-------------------------------| 
A|-----------------------------------11-------------------------------| 
E|------------------------------------9-------------------------------| 
'im sick of the girl	   waiting in my shadow' 
'im looking at the girl    changing to a sparrow' 
e|--------------------------------------------------------------------| 
B|--------------------------------------------------------------------| 
G|------------------9--------------------11---------------------------| 
D|------------------9--------------------11---------------------------| 
A|------------------7---------------------9---------------------------| 
E|--------------------------------------------------------------------| 
'ill be your angel when you go down' 
e|--------------------------------------------------------------------| 
B|---10-------------12------------------------------------------------| 
G|----9-------------11---------------------7-x------------------------| 
D|----7--------------9---------------11-x--7-x--11-x--9-x--5--9-------| 
A|-----------------------------------11-x--9-x--11-x--9-x--5--9-------| 
E|------------------------------------9-x--------9-x--7-x--7--7-------| 
interludey bit 
e|--------------------------------------------------------------------| 
B|--------------------------------------------------------------------| 
G|---------1-1--------------------------------------------------------| 
D|----4-4------4-4--2----2-2------------------------------------------| 
A|--------------------4-------4-4--2-2--------------------------------| 
E|--2-----------------------------------5-5--4-3----------------------| 
e|--------------------------------------------------------------------| 
B|-------------------------------------------2-5----------------------| 
G|---------1-1---------------------1-1--4-4---------------------------| 
D|----4-4------4-4--2----2-2--4-4-------------------------------------| 
A|--------------------4-----------------------------------------------| 
E|-2-2----------------------------------------------------------------| 
the above bit is played twice, then slides into the follwoing... 
e|--------------------------------------------------------------------| 
B|--/-12---12-12-12--9----9---9-12---12-12-12-12-9---9---9-------------| 
G|---------------------9---9-----------------------9--9---------------| 
D|--------------------------------------------------------------------| 
A|--------------------------------------------------------------------| 
E|--------------------------------------------------------------------| 
the above bit is played twice before going to this next bit... 
e|--------------------------------------------------------------------| 
B|-12-12-12-12-12-12-12-12-(x2)-12-12-9-9-10-10-9-9-10-10-9-9-10-10-9-9-| 
G|--------------------------------------------------------------------| 
D|--------------------------------------------------------------------| 
A|--------------------------------------------------------------------| 
E|--------------------------------------------------------------------| 
the above bit is slightly changed when it is repeated 
this next bit is played double time 
        'I     know  where you   are   at................' 
e|--------------------------------------------------------------------| 
B|--------------------------------------------------------------------| 
G|-8-8-8-9-9-9-8-8-8-9-9-9-8-8-8-9-9-9-11-11-11-11-11-11--------------| 
D|--------------------------------------------------------------------| 
A|--------------------------------------------------------------------| 
E|--------------------------------------------------------------------| 
endy bit 
e|--------------------------------------------------------------------| 
B|--------------------------------------------------------------------| 
G|--------9-x---------------------------------------------------------| 
D|--11-x--9-x--9-x-------9-------9---7---4----------------------------| 
A|--11-x--7-x--9-x-------9-------9---7---4----------------------------| 
E|---9--x------7-x--7-7--7--7-7--7---5---2----------------------------| 
		    ! !	    ! ! 
the '!' notes are natural harmonics 
=============================================================================