Australia 
Teenage Vampire 
Magic Dirt 
Tabbed By Sean 
this is the demo version, with more guitars instead of the theramin all the time. for rauls  
guitar only.  
Intro and verse riff :  
------------------------------------------------------------ 
------------------------------------------------------------ 
------------------------------------------------------------ 
----11-11-11-11--11-11-11-----7777777-----555555555555------ 
----11-11-11-11--11-11-11-----7777777-----555555555555------ 
-----9---9--9---9----9--9---9------5555555-----333333333333- 
play this until " you out your head out on a line" and then crank on the distortion until  
the chorus.  
Chorus : For the chorus you need a slide ,  
------------------------------------------------------------------------- 
------------------------------------------------------------------------- 
------------------------------------------------------------------------- 
------5--/----7--/----9--/--12---/-9-----9-/--12-/-9----9---/-12-/--9---- 
------5--/----7--/----9--/--12---/-9-----9-/--12-/-9----9---/-12-/--9---- 
------5--/----7--/----9--/--12---/-9-----9-/--12-/-9----9---/-12-/--9---- 
Lead :  
Again you need a slide 
----------------------------------------------------------- 
----------------------------------------------------------- 
-----------------------------9/-12/-7---7/5/3/2------------ 
----9-/12-/-9--9-/12-/8------------------------------------ 
----------------------------------------------------------- 
----------------------------------------------------------- 
The Ending :  
----------------------------------- 
----------------------------------- 
----------------------------------- 
----------------------------------- 
----555-777-999--555--77--9-------- 
----555-777-999--555--77--9--------