Part : Guitar 
Tuning: CGCFAD 
Tabbed: Sam Price aka Bluey 
Email : [email protected] 
Visit : www.tooltabs.net/cog/ 
Legend 
nh - natural harmonic   ph - pinch harmonic 
pm - palm mute          x - muted string 
h - hammer on           p - pull off 
\\ - slide down         // - slide up 
b - bend                ~~ - vibrato 
<7> - natural harmonic  x/// - pick scrape (directions same as slide) 
D----------------------------------------------------------- 
A----------------------------------------------------------- 
F----------------------------------------------------------- 
C-3-3-3-3-3-3-3-3-3-3-3-0-3-3-3-3-3-3-3-3/5-5-5-5-5-0------- 
G-3-3-3-3-3-3-3-3-3-3-3-0-3-3-3-3-3-3-3-3/5-5-5-5-5-0------- 
C-3-3-3-3-3-3-3-3-3-3-3-0-3-3-3-3-3-3-3-3/5-5-5-5-5-0------- 
D------------------------------------- 
A------------------------------------- 
F-------0-----------------0----------- 
C----------3-----------------3-------- x a few, some small variations each time 
G-5----------5----5------------5------ 
C-0---------------0------------------- 
 Let ring........        ............. 
               x4|               x4| 
D----------------|-----------------| 
A----------------|-----------------| 
F----------------|---2-------2-----| 
C----------------|-----0--------0--| x2 
G----7\5---5/7---|-3------3--------| 
C--0-----0-------|-----------------| 
                  let ring......... 
D------------------------ 
A------------------------ 
F------0---------0------- 
C--5------3-------------- x a few more, with some variations 
G--3--------5------------ 
C--0--------------------- 
      ................. 
D------------------------- 
A------------------------- 
F------0-----------0------ 
C-0--------0---0-------0-- 
G-8------8-----8-----8---- 
C-8------------8---------- 
 ......................... 
D---------------- 
A---------------- 
F---------------- 
C---------------- 
G----7\5---5/7--- 
C--0-----0------- 
D----5--------5----|---3------3----|---- 
A------3--------3--|-----3------3--|-3-- 
F--5-------5-------|-5------4------|-4-- 
C------------------|---------------|-5-- 
G------------------|---------------|---- 
C------------------|---------------|---- 
  ...................................... 
D------------------------------------------------- 
A------------------------------------------------- 
F------------------------------------------------- 
C--0/8-8-8-8-7-7-7-7-\3-3-3-3-/10-10-10-10-------- 
G--0/8-8-8-8-7-7-7-7-\3-3-3-3-/10-10-10-10-------- 
C--0/8-8-8-8-7-7-7-7-\3-3-3-3-/10-10-10-10-------- 
 p.m.............. 
D------------------------------------------ 
A------------------------------------------ 
F------------------------------------------ 
C-10-0--0-0-7-0--0-8-8-8-0--0-0-1-0-0-3/--- 
G-10-0--0-0-7-0--0-8-8-8-0--0-0-1-0-0-3/--- 
C-10-0--0-0-7-0--0-8-8-8-0--0-0-1-0-0-3/--- 
D----------------------------------------- 
A----------------------------------------- 
F-------------------9--9-9--9-9--9-------- 
C-10-0--0-0-7--0--0-8--8-8--8-8--8--10---- 
G-10-0--0-0-7--0--0-8--8-8--8-8--8--10---- 
C-10-0--0-0-7--0--0-8--8-8--8-8--8--10---- 
D------------------------------------------ 
A------------------------------------------ 
F------------------------------------------ 
C-10-0--0-0-7-0--0-8-8-8-0--0-0-1-0-0-3/--- 
G-10-0--0-0-7-0--0-8-8-8-0--0-0-1-0-0-3/--- 
C-10-0--0-0-7-0--0-8-8-8-0--0-0-1-0-0-3/--- 
D----------------------------------------------------- 
A----------------------------------------------------- 
F----------------------------------------------------- 
C-10-0--0-0-7--0--0-3--3--3--3--3--3--3-3-5-5-5-5-5/-- 
G-10-0--0-0-7--0--0-3--3--3--3--3--3--3-3/5-5-5-5-5/-- 
C-10-0--0-0-7--0--0-3--3--3--3--3--3--3-3/5-5-5-5-5/-- 
D------------------------------------------ 
A------------------------------------------ 
F------------------------------------------ 
C-10-0--0-0-1-0--0-5-5-5-0--0-0-1-0-0-3/--- 
G-10-0--0-0-1-0--0-5-5-5-0--0-0-1-0-0-3/--- 
C-10-0--0-0-1-0--0-5-5-5-0--0-0-1-0-0-3/--- 
D----------------------------------------- 
A----------------------------------------- 
F-------------------9--9-9--9-9--9-------- 
C-10-0--0-0-1--0--0-8--8-8--8-8--8--10---- 
G-10-0--0-0-1--0--0-8--8-8--8-8--8--10---- 
C-10-0--0-0-1--0--0-8--8-8--8-8--8--10---- 
D------------------------------------------------------ 
A------------------------------------------------------ 
F------------------------------------------------------ 
C-10-0--0-0-1-0--0-5-5-5-0--0-0-1-1-1-1/5--4--0--10p0-- 
G-10-0--0-0-1-0--0-5-5-5-0--0-0-1-1-1-1/5--4--0--10p0-- 
C-10-0--0-0-1-0--0-5-5-5-0--0-0-1-1-1-1/5--4--0--10p0-- 
D---------------------------------| 
A---------------------------------| 
F---------------------------------| 
C-14p12-0-10h12-12-12\\\-1--1-///-| x3 
G-14p12-0-10h12-12-12\\\-1--1-///-| 
C-14p12-0-10h12-12-12\\\-1--1-///-| 
D------------------ 
A------------------ 
F------------------ 
C-14p12-0-10h12-0-- 
G-14p12-0-10h12-0-- 
C-14p12-0-10h12-0-- 
D---------------------------- 
A--8------------------------- 
F--9------------------------- 
C--8------------------------- 
G--8------------------------- 
C--8------------------------- 
 Strum this chord for the outro